ISO-10303-21;
HEADER;
FILE_DESCRIPTION (( 'STEP AP214' ),
    '1' );
FILE_NAME ('AL-20.2040 Ñîåäèíèòåëü 20õ40, 20 ñåðèÿ.STEP',
    '2022-07-14T13:35:19',
    ( '' ),
    ( '' ),
    'SwSTEP 2.0',
    'SolidWorks 2021',
    '' );
FILE_SCHEMA (( 'AUTOMOTIVE_DESIGN' ));
ENDSEC;

DATA;
#1 = AXIS2_PLACEMENT_3D ( 'NONE', #372, #403, #309 ) ;
#2 = AXIS2_PLACEMENT_3D ( 'NONE', #410, #68, #123 ) ;
#3 = CYLINDRICAL_SURFACE ( 'NONE', #217, 2.500000000000000444 ) ;
#4 = FACE_OUTER_BOUND ( 'NONE', #293, .T. ) ;
#5 = ORIENTED_EDGE ( 'NONE', *, *, #333, .F. ) ;
#6 = EDGE_CURVE ( 'NONE', #150, #181, #115, .T. ) ;
#7 = DIRECTION ( 'NONE',  ( -1.183789177794380774E-12, -1.015000583581840473E-12, -1.000000000000000000 ) ) ;
#8 = EDGE_LOOP ( 'NONE', ( #366 ) ) ;
#9 = DIRECTION ( 'NONE',  ( -1.000000000000000000, -2.019483917365789773E-28, 1.183789177794380774E-12 ) ) ;
#10 = AXIS2_PLACEMENT_3D ( 'NONE', #249, #228, #30 ) ;
#11 = VERTEX_POINT ( 'NONE', #22 ) ;
#12 = ORIENTED_EDGE ( 'NONE', *, *, #230, .T. ) ;
#13 = EDGE_CURVE ( 'NONE', #74, #198, #399, .T. ) ;
#14 = CARTESIAN_POINT ( 'NONE',  ( 7.250000000001191047, 11.00000000000105693, 0.9999999999931263872 ) ) ;
#15 = ORIENTED_EDGE ( 'NONE', *, *, #84, .T. ) ;
#16 = CARTESIAN_POINT ( 'NONE',  ( 16.00000000000119371, -17.49999999999894484, 1.000000000011695533 ) ) ;
#17 = CARTESIAN_POINT ( 'NONE',  ( 4.000000000001189271, 19.50000000000105871, 0.9999999999883460999 ) ) ;
#18 = DIRECTION ( 'NONE',  ( 1.000000000000000000, 2.019483917365789773E-28, -1.183789177794380774E-12 ) ) ;
#19 = CIRCLE ( 'NONE', #196, 2.500000000000002220 ) ;
#20 = VECTOR ( 'NONE', #267, 1000.000000000000000 ) ;
#21 = CIRCLE ( 'NONE', #374, 2.500000000000002220 ) ;
#22 = CARTESIAN_POINT ( 'NONE',  ( 4.000000000001190159, -17.49999999999894484, 1.000000000025901281 ) ) ;
#23 = DIRECTION ( 'NONE',  ( 1.000000000000000000, 0.000000000000000000, -1.183775300006572151E-12 ) ) ;
#24 = ORIENTED_EDGE ( 'NONE', *, *, #265, .T. ) ;
#25 = SURFACE_SIDE_STYLE ('',( #274 ) ) ;
#26 = FACE_BOUND ( 'NONE', #96, .T. ) ;
#27 = CIRCLE ( 'NONE', #80, 2.750000000000000888 ) ;
#28 = CARTESIAN_POINT ( 'NONE',  ( 10.00000000000118128, -8.999999999998943068, 1.000000000010171197 ) ) ;
#29 = LINE ( 'NONE', #156, #301 ) ;
#30 = DIRECTION ( 'NONE',  ( 1.000000000000000000, 0.000000000000000000, -1.183791070219990783E-12 ) ) ;
#31 = AXIS2_PLACEMENT_3D ( 'NONE', #240, #363, #83 ) ;
#32 = CYLINDRICAL_SURFACE ( 'NONE', #250, 2.500000000000002220 ) ;
#33 = EDGE_LOOP ( 'NONE', ( #298 ) ) ;
#34 = LINE ( 'NONE', #73, #147 ) ;
#35 = ORIENTED_EDGE ( 'NONE', *, *, #319, .F. ) ;
#36 = CARTESIAN_POINT ( 'NONE',  ( 18.50000000000119726, 17.00000000000105516, 0.9999999999737185785 ) ) ;
#37 = ORIENTED_EDGE ( 'NONE', *, *, #230, .F. ) ;
#38 = FACE_OUTER_BOUND ( 'NONE', #168, .T. ) ;
#39 = ORIENTED_EDGE ( 'NONE', *, *, #312, .T. ) ;
#40 = ADVANCED_FACE ( 'NONE', ( #103 ), #242, .T. ) ;
#41 = DIRECTION ( 'NONE',  ( -1.183789177794380774E-12, -1.015000583581840473E-12, -1.000000000000000000 ) ) ;
#42 = ORIENTED_EDGE ( 'NONE', *, *, #344, .F. ) ;
#43 = SHAPE_DEFINITION_REPRESENTATION ( #57, #104 ) ;
#44 = FACE_OUTER_BOUND ( 'NONE', #222, .T. ) ;
#45 = FACE_OUTER_BOUND ( 'NONE', #288, .T. ) ;
#46 = VERTEX_POINT ( 'NONE', #14 ) ;
#47 = CIRCLE ( 'NONE', #277, 2.500000000000000444 ) ;
#48 = EDGE_CURVE ( 'NONE', #181, #98, #358, .T. ) ;
#49 = LINE ( 'NONE', #143, #20 ) ;
#50 = ORIENTED_EDGE ( 'NONE', *, *, #6, .F. ) ;
#51 = SURFACE_STYLE_USAGE ( .BOTH. , #357 ) ;
#52 = PLANE ( 'NONE',  #368 ) ;
#53 = DIRECTION ( 'NONE',  ( -1.000000000000000000, 0.000000000000000000, 1.183791070219990783E-12 ) ) ;
#54 = AXIS2_PLACEMENT_3D ( 'NONE', #137, #271, #108 ) ;
#55 = ADVANCED_FACE ( 'NONE', ( #44 ), #52, .T. ) ;
#56 = ORIENTED_EDGE ( 'NONE', *, *, #166, .T. ) ;
#57 = PRODUCT_DEFINITION_SHAPE ( 'NONE', 'NONE',  #389 ) ;
#58 = FILL_AREA_STYLE ('',( #404 ) ) ;
#59 = APPLICATION_CONTEXT ( 'automotive_design' ) ;
#60 = CYLINDRICAL_SURFACE ( 'NONE', #284, 2.500000000000002220 ) ;
#61 = CARTESIAN_POINT ( 'NONE',  ( 16.00000000000119371, -14.99999999999894129, 1.000000000009158008 ) ) ;
#62 = MECHANICAL_DESIGN_GEOMETRIC_PRESENTATION_REPRESENTATION (  '', ( #263 ), #294 ) ;
#63 = DIRECTION ( 'NONE',  ( -1.183789177794380774E-12, -1.015000583581840473E-12, -1.000000000000000000 ) ) ;
#64 = DIRECTION ( 'NONE',  ( -1.183789177794380774E-12, -1.015000583581840473E-12, -1.000000000000000000 ) ) ;
#65 = CARTESIAN_POINT ( 'NONE',  ( 1.500000000001189715, -14.99999999999894129, 1.000000000026323166 ) ) ;
#66 = ORIENTED_EDGE ( 'NONE', *, *, #339, .T. ) ;
#67 =( GEOMETRIC_REPRESENTATION_CONTEXT ( 3 ) GLOBAL_UNCERTAINTY_ASSIGNED_CONTEXT ( ( #212 ) ) GLOBAL_UNIT_ASSIGNED_CONTEXT ( ( #154, #151, #215 ) ) REPRESENTATION_CONTEXT ( 'NONE', 'WORKASPACE' ) );
#68 = DIRECTION ( 'NONE',  ( -1.183789177794380774E-12, -1.015000583581840473E-12, -1.000000000000000000 ) ) ;
#69 = ORIENTED_EDGE ( 'NONE', *, *, #344, .T. ) ;
#70 = DIRECTION ( 'NONE',  ( 1.000000000000000000, 0.000000000000000000, -1.183775300006572959E-12 ) ) ;
#71 = ORIENTED_EDGE ( 'NONE', *, *, #84, .F. ) ;
#72 = ADVANCED_FACE ( 'NONE', ( #296 ), #175, .T. ) ;
#73 = CARTESIAN_POINT ( 'NONE',  ( 16.00000000000119371, 19.50000000000105871, 0.9999999999741404633 ) ) ;
#74 = VERTEX_POINT ( 'NONE', #17 ) ;
#75 = ORIENTED_EDGE ( 'NONE', *, *, #295, .T. ) ;
#76 = CARTESIAN_POINT ( 'NONE',  ( 10.00000000000119194, 11.00000000000105693, 0.9999999999898709913 ) ) ;
#77 =( LENGTH_UNIT ( ) NAMED_UNIT ( * ) SI_UNIT ( .MILLI., .METRE. ) );
#78 = DIRECTION ( 'NONE',  ( -1.201649728817821095E-24, 1.000000000000000000, -1.015000583581841079E-12 ) ) ;
#79 = VERTEX_POINT ( 'NONE', #329 ) ;
#80 = AXIS2_PLACEMENT_3D ( 'NONE', #76, #278, #276 ) ;
#81 = PRESENTATION_LAYER_ASSIGNMENT (  '', '', ( #263 ) ) ;
#82 = ORIENTED_EDGE ( 'NONE', *, *, #207, .F. ) ;
#83 = DIRECTION ( 'NONE',  ( -1.000000000000000000, 0.000000000000000000, 1.183791070219990783E-12 ) ) ;
#84 = EDGE_CURVE ( 'NONE', #227, #94, #233, .T. ) ;
#85 = CARTESIAN_POINT ( 'NONE',  ( 18.49999999999882760, 16.99999999999903011, -1.000000000026281644 ) ) ;
#86 = DIRECTION ( 'NONE',  ( -1.183789177794380774E-12, -1.015000583581840473E-12, -1.000000000000000000 ) ) ;
#87 = DIRECTION ( 'NONE',  ( 1.000000000000000000, 0.000000000000000000, -1.183775300006572151E-12 ) ) ;
#88 = AXIS2_PLACEMENT_3D ( 'NONE', #343, #63, #365 ) ;
#89 = ORIENTED_EDGE ( 'NONE', *, *, #300, .F. ) ;
#90 = PLANE ( 'NONE',  #111 ) ;
#91 = CIRCLE ( 'NONE', #161, 2.500000000000002220 ) ;
#92 = CARTESIAN_POINT ( 'NONE',  ( 1.500000000001189715, 17.00000000000105516, 0.9999999999938430362 ) ) ;
#93 = DIRECTION ( 'NONE',  ( 1.000000000000000000, 2.019483917365789773E-28, -1.183789177794380774E-12 ) ) ;
#94 = VERTEX_POINT ( 'NONE', #297 ) ;
#95 = DIRECTION ( 'NONE',  ( 1.000000000000000000, 0.000000000000000000, -1.183775300006572151E-12 ) ) ;
#96 = EDGE_LOOP ( 'NONE', ( #163 ) ) ;
#97 = CARTESIAN_POINT ( 'NONE',  ( 18.50000000000119726, -14.99999999999894129, 1.000000000006198597 ) ) ;
#98 = VERTEX_POINT ( 'NONE', #330 ) ;
#99 = EDGE_CURVE ( 'NONE', #351, #94, #49, .T. ) ;
#100 = CARTESIAN_POINT ( 'NONE',  ( 3.999999999998822275, 19.49999999999903011, -1.000000000011654233 ) ) ;
#101 = EDGE_LOOP ( 'NONE', ( #261, #220, #229, #89, #316, #171, #82, #383 ) ) ;
#102 = VERTEX_POINT ( 'NONE', #109 ) ;
#103 = FACE_OUTER_BOUND ( 'NONE', #402, .T. ) ;
#104 = ADVANCED_BREP_SHAPE_REPRESENTATION ( 'AL-20.2040 Tþõôøýøªõû¹ 20¿40, 20 ¸õ¨ø ', ( #157, #307 ), #382 ) ;
#105 =( NAMED_UNIT ( * ) SI_UNIT ( $, .STERADIAN. ) SOLID_ANGLE_UNIT ( ) );
#106 = CARTESIAN_POINT ( 'NONE',  ( 18.50000000000119726, 17.00000000000105516, 0.9999999999737185785 ) ) ;
#107 = DIRECTION ( 'NONE',  ( 1.000000000000000000, 0.000000000000000000, -1.183775300006572151E-12 ) ) ;
#108 = DIRECTION ( 'NONE',  ( 1.000000000000000000, 0.000000000000000000, -1.183775300006572151E-12 ) ) ;
#109 = CARTESIAN_POINT ( 'NONE',  ( 1.499999999998821831, 16.99999999999903011, -1.000000000006157297 ) ) ;
#110 = VECTOR ( 'NONE', #308, 1000.000000000000000 ) ;
#111 = AXIS2_PLACEMENT_3D ( 'NONE', #61, #408, #191 ) ;
#112 = CYLINDRICAL_SURFACE ( 'NONE', #54, 2.500000000000002220 ) ;
#113 = ORIENTED_EDGE ( 'NONE', *, *, #99, .F. ) ;
#114 = EDGE_CURVE ( 'NONE', #79, #79, #348, .T. ) ;
#115 = LINE ( 'NONE', #183, #223 ) ;
#116 = EDGE_LOOP ( 'NONE', ( #321 ) ) ;
#117 = FACE_BOUND ( 'NONE', #116, .T. ) ;
#118 = VECTOR ( 'NONE', #93, 1000.000000000000000 ) ;
#119 = ORIENTED_EDGE ( 'NONE', *, *, #300, .T. ) ;
#120 = LINE ( 'NONE', #216, #110 ) ;
#121 = ADVANCED_FACE ( 'NONE', ( #270, #281, #45 ), #394, .T. ) ;
#122 = SURFACE_STYLE_USAGE ( .BOTH. , #25 ) ;
#123 = DIRECTION ( 'NONE',  ( 1.000000000000000000, 0.000000000000000000, -1.183791070219990783E-12 ) ) ;
#124 = VECTOR ( 'NONE', #252, 1000.000000000000000 ) ;
#125 = ADVANCED_FACE ( 'NONE', ( #400 ), #112, .T. ) ;
#126 = LINE ( 'NONE', #258, #392 ) ;
#127 = FACE_OUTER_BOUND ( 'NONE', #241, .T. ) ;
#128 = ORIENTED_EDGE ( 'NONE', *, *, #99, .T. ) ;
#129 = CARTESIAN_POINT ( 'NONE',  ( 4.000000000001190159, 17.00000000000105516, 0.9999999999908836257 ) ) ;
#130 = ORIENTED_EDGE ( 'NONE', *, *, #295, .F. ) ;
#131 = CARTESIAN_POINT ( 'NONE',  ( 16.00000000000119371, 19.50000000000105871, 0.9999999999741404633 ) ) ;
#132 = ORIENTED_EDGE ( 'NONE', *, *, #48, .T. ) ;
#133 = ORIENTED_EDGE ( 'NONE', *, *, #190, .F. ) ;
#134 = PRODUCT ( 'AL-20.2040 Ñîåäèíèòåëü 20õ40, 20 ñåðèÿ', 'AL-20.2040 Ñîåäèíèòåëü 20õ40, 20 ñåðèÿ', '', ( #325 ) ) ;
#135 = VERTEX_POINT ( 'NONE', #332 ) ;
#136 = EDGE_LOOP ( 'NONE', ( #356, #203, #257, #355 ) ) ;
#137 = CARTESIAN_POINT ( 'NONE',  ( 16.00000000000119371, -14.99999999999894129, 1.000000000009158008 ) ) ;
#138 = COLOUR_RGB ( '',0.5686274509803921351, 0.5882352941176470784, 0.6039215686274509443 ) ;
#139 = CIRCLE ( 'NONE', #291, 2.500000000000000444 ) ;
#140 = FILL_AREA_STYLE ('',( #239 ) ) ;
#141 = SURFACE_STYLE_FILL_AREA ( #140 ) ;
#142 = DIRECTION ( 'NONE',  ( -1.183789177794380774E-12, -1.015000583581840473E-12, -1.000000000000000000 ) ) ;
#143 = CARTESIAN_POINT ( 'NONE',  ( 1.500000000001189715, -14.99999999999894129, 1.000000000026323166 ) ) ;
#144 = EDGE_CURVE ( 'NONE', #46, #46, #27, .T. ) ;
#145 = EDGE_LOOP ( 'NONE', ( #35, #286, #24, #323 ) ) ;
#146 = DIRECTION ( 'NONE',  ( -1.183789177794380774E-12, -1.015000583581840473E-12, -1.000000000000000000 ) ) ;
#147 = VECTOR ( 'NONE', #7, 1000.000000000000000 ) ;
#148 = DIRECTION ( 'NONE',  ( -1.183789177794380774E-12, -1.015000583581840473E-12, -1.000000000000000000 ) ) ;
#149 = DIRECTION ( 'NONE',  ( -1.183789177794380774E-12, -1.015000583581840473E-12, -1.000000000000000000 ) ) ;
#150 = VERTEX_POINT ( 'NONE', #187 ) ;
#151 =( NAMED_UNIT ( * ) PLANE_ANGLE_UNIT ( ) SI_UNIT ( $, .RADIAN. ) );
#152 = ORIENTED_EDGE ( 'NONE', *, *, #114, .T. ) ;
#153 = ADVANCED_FACE ( 'NONE', ( #246 ), #303, .T. ) ;
#154 =( LENGTH_UNIT ( ) NAMED_UNIT ( * ) SI_UNIT ( .MILLI., .METRE. ) );
#155 = DIRECTION ( 'NONE',  ( -1.183789177794380774E-12, -1.015000583581840473E-12, -1.000000000000000000 ) ) ;
#156 = CARTESIAN_POINT ( 'NONE',  ( 1.500000000001189715, 17.00000000000105516, 0.9999999999938430362 ) ) ;
#157 = MANIFOLD_SOLID_BREP ( 'Òåëî-Ïåðåìåñòèòü/Êîïèðîâàòü1', #380 ) ;
#158 = CARTESIAN_POINT ( 'NONE',  ( 18.50000000000119726, -14.99999999999894129, 1.000000000006198597 ) ) ;
#159 = UNCERTAINTY_MEASURE_WITH_UNIT (LENGTH_MEASURE( 1.000000000000000082E-05 ), #77, 'distance_accuracy_value', 'NONE');
#160 = AXIS2_PLACEMENT_3D ( 'NONE', #16, #180, #18 ) ;
#161 = AXIS2_PLACEMENT_3D ( 'NONE', #381, #64, #164 ) ;
#162 = LINE ( 'NONE', #322, #337 ) ;
#163 = ORIENTED_EDGE ( 'NONE', *, *, #144, .T. ) ;
#164 = DIRECTION ( 'NONE',  ( 1.000000000000000000, 0.000000000000000000, -1.183775300006572151E-12 ) ) ;
#165 = ORIENTED_EDGE ( 'NONE', *, *, #359, .T. ) ;
#166 = EDGE_CURVE ( 'NONE', #351, #331, #120, .T. ) ;
#167 = DIRECTION ( 'NONE',  ( 1.201649728817821095E-24, -1.000000000000000000, 1.015000583581841079E-12 ) ) ;
#168 = EDGE_LOOP ( 'NONE', ( #370 ) ) ;
#169 = CIRCLE ( 'NONE', #269, 2.750000000000000888 ) ;
#170 = CYLINDRICAL_SURFACE ( 'NONE', #2, 2.750000000000000888 ) ;
#171 = ORIENTED_EDGE ( 'NONE', *, *, #166, .F. ) ;
#172 = DIRECTION ( 'NONE',  ( 1.000000000000000000, 0.000000000000000000, -1.183775300006572959E-12 ) ) ;
#173 = ORIENTED_EDGE ( 'NONE', *, *, #319, .T. ) ;
#174 = EDGE_CURVE ( 'NONE', #135, #135, #406, .T. ) ;
#175 = PLANE ( 'NONE',  #160 ) ;
#176 = VECTOR ( 'NONE', #193, 1000.000000000000000 ) ;
#177 = CARTESIAN_POINT ( 'NONE',  ( 4.000000000001190159, 19.50000000000105871, 0.9999999999883460999 ) ) ;
#178 =( NAMED_UNIT ( * ) PLANE_ANGLE_UNIT ( ) SI_UNIT ( $, .RADIAN. ) );
#179 = CARTESIAN_POINT ( 'NONE',  ( 3.999999999998822275, -15.00000000000097167, -0.9999999999766367997 ) ) ;
#180 = DIRECTION ( 'NONE',  ( 1.201748654690900888E-24, -1.000000000000000000, 1.015000583581841079E-12 ) ) ;
#181 = VERTEX_POINT ( 'NONE', #340 ) ;
#182 = AXIS2_PLACEMENT_3D ( 'NONE', #177, #234, #393 ) ;
#183 = CARTESIAN_POINT ( 'NONE',  ( 18.50000000000119726, 17.00000000000105516, 0.9999999999737185785 ) ) ;
#184 = VECTOR ( 'NONE', #142, 1000.000000000000000 ) ;
#185 = CARTESIAN_POINT ( 'NONE',  ( 4.000000000001190159, -14.99999999999894129, 1.000000000023363755 ) ) ;
#186 = ORIENTED_EDGE ( 'NONE', *, *, #369, .T. ) ;
#187 = CARTESIAN_POINT ( 'NONE',  ( 18.50000000000119726, 17.00000000000105516, 0.9999999999737185785 ) ) ;
#188 = APPLICATION_CONTEXT ( 'automotive_design' ) ;
#189 = CARTESIAN_POINT ( 'NONE',  ( 4.000000000001190159, -14.99999999999894129, 1.000000000023363755 ) ) ;
#190 = EDGE_CURVE ( 'NONE', #266, #266, #169, .T. ) ;
#191 = DIRECTION ( 'NONE',  ( 1.000000000000000000, 2.019483917365789773E-28, -1.183789177794380774E-12 ) ) ;
#192 = PRODUCT_DEFINITION_CONTEXT ( 'detailed design', #188, 'design' ) ;
#193 = DIRECTION ( 'NONE',  ( -1.183789177794380774E-12, -1.015000583581840473E-12, -1.000000000000000000 ) ) ;
#194 = CARTESIAN_POINT ( 'NONE',  ( 16.00000000000119371, -17.49999999999894484, 1.000000000011695533 ) ) ;
#195 = EDGE_LOOP ( 'NONE', ( #130, #113, #56, #259 ) ) ;
#196 = AXIS2_PLACEMENT_3D ( 'NONE', #185, #304, #248 ) ;
#197 = DIRECTION ( 'NONE',  ( -1.183789177794380774E-12, -1.015000583581840473E-12, -1.000000000000000000 ) ) ;
#198 = VERTEX_POINT ( 'NONE', #302 ) ;
#199 = ADVANCED_FACE ( 'NONE', ( #367 ), #60, .T. ) ;
#200 = DIRECTION ( 'NONE',  ( -1.183789177794380774E-12, -1.015000583581840473E-12, -1.000000000000000000 ) ) ;
#201 = ORIENTED_EDGE ( 'NONE', *, *, #247, .T. ) ;
#202 = CARTESIAN_POINT ( 'NONE',  ( 1.499999999998821831, -15.00000000000097167, -0.9999999999736772782 ) ) ;
#203 = ORIENTED_EDGE ( 'NONE', *, *, #237, .F. ) ;
#204 = PRESENTATION_LAYER_ASSIGNMENT (  '', '', ( #305 ) ) ;
#205 = VECTOR ( 'NONE', #167, 1000.000000000000000 ) ;
#206 = EDGE_LOOP ( 'NONE', ( #37, #42, #379, #165 ) ) ;
#207 = EDGE_CURVE ( 'NONE', #11, #351, #19, .T. ) ;
#208 = APPLICATION_PROTOCOL_DEFINITION ( 'draft international standard', 'automotive_design', 1998, #59 ) ;
#209 = CARTESIAN_POINT ( 'NONE',  ( 4.000000000001190159, -17.49999999999894484, 1.000000000025901281 ) ) ;
#210 = VECTOR ( 'NONE', #334, 1000.000000000000000 ) ;
#211 = APPLICATION_PROTOCOL_DEFINITION ( 'draft international standard', 'automotive_design', 1998, #188 ) ;
#212 = UNCERTAINTY_MEASURE_WITH_UNIT (LENGTH_MEASURE( 1.000000000000000082E-05 ), #154, 'distance_accuracy_value', 'NONE');
#213 = CARTESIAN_POINT ( 'NONE',  ( 16.00000000000119371, 17.00000000000105516, 0.9999999999766779890 ) ) ;
#214 = FACE_OUTER_BOUND ( 'NONE', #33, .T. ) ;
#215 =( NAMED_UNIT ( * ) SI_UNIT ( $, .STERADIAN. ) SOLID_ANGLE_UNIT ( ) );
#216 = CARTESIAN_POINT ( 'NONE',  ( 1.500000000001189715, -14.99999999999894129, 1.000000000026323166 ) ) ;
#217 = AXIS2_PLACEMENT_3D ( 'NONE', #129, #376, #70 ) ;
#218 = CARTESIAN_POINT ( 'NONE',  ( 15.99999999999882760, -17.50000000000097344, -0.9999999999883046886 ) ) ;
#219 = DIRECTION ( 'NONE',  ( -1.000000000000000000, -2.019483917365789773E-28, 1.183789177794380774E-12 ) ) ;
#220 = ORIENTED_EDGE ( 'NONE', *, *, #369, .F. ) ;
#221 = FACE_OUTER_BOUND ( 'NONE', #243, .T. ) ;
#222 = EDGE_LOOP ( 'NONE', ( #386, #50, #186, #69 ) ) ;
#223 = VECTOR ( 'NONE', #299, 1000.000000000000000 ) ;
#224 = ADVANCED_FACE ( 'NONE', ( #26, #117, #371 ), #90, .F. ) ;
#225 = COLOUR_RGB ( '',0.5686274509803921351, 0.5882352941176470784, 0.6039215686274509443 ) ;
#226 = DIRECTION ( 'NONE',  ( -1.183789177794380774E-12, -1.015000583581840473E-12, -1.000000000000000000 ) ) ;
#227 = VERTEX_POINT ( 'NONE', #282 ) ;
#228 = DIRECTION ( 'NONE',  ( -1.183789177794380774E-12, -1.015000583581840473E-12, -1.000000000000000000 ) ) ;
#229 = ORIENTED_EDGE ( 'NONE', *, *, #247, .F. ) ;
#230 = EDGE_CURVE ( 'NONE', #98, #388, #251, .T. ) ;
#231 = LINE ( 'NONE', #209, #184 ) ;
#232 = ORIENTED_EDGE ( 'NONE', *, *, #361, .F. ) ;
#233 = CIRCLE ( 'NONE', #401, 2.500000000000002220 ) ;
#234 = DIRECTION ( 'NONE',  ( -1.201748654690900888E-24, 1.000000000000000000, -1.015000583581841079E-12 ) ) ;
#235 = DIRECTION ( 'NONE',  ( 1.000000000000000000, 0.000000000000000000, 0.000000000000000000 ) ) ;
#236 = DIRECTION ( 'NONE',  ( 1.000000000000000000, 1.030225186567854649E-28, -1.183789177794380774E-12 ) ) ;
#237 = EDGE_CURVE ( 'NONE', #331, #102, #29, .T. ) ;
#238 = VECTOR ( 'NONE', #285, 1000.000000000000000 ) ;
#239 = FILL_AREA_STYLE_COLOUR ( '', #225 ) ;
#240 = CARTESIAN_POINT ( 'NONE',  ( 9.999999999998824052, 10.99999999999902833, -1.000000000010129453 ) ) ;
#241 = EDGE_LOOP ( 'NONE', ( #353, #5, #201, #290 ) ) ;
#242 = PLANE ( 'NONE',  #182 ) ;
#243 = EDGE_LOOP ( 'NONE', ( #133 ) ) ;
#244 = CARTESIAN_POINT ( 'NONE',  ( 15.99999999999882760, 19.49999999999903011, -1.000000000025859759 ) ) ;
#245 = DIRECTION ( 'NONE',  ( -1.000000000000000000, 0.000000000000000000, 1.183791070219990783E-12 ) ) ;
#246 = FACE_OUTER_BOUND ( 'NONE', #195, .T. ) ;
#247 = EDGE_CURVE ( 'NONE', #272, #150, #21, .T. ) ;
#248 = DIRECTION ( 'NONE',  ( 1.000000000000000000, 0.000000000000000000, -1.183775300006572151E-12 ) ) ;
#249 = CARTESIAN_POINT ( 'NONE',  ( 10.00000000000119194, 11.00000000000105693, 0.9999999999898709913 ) ) ;
#250 = AXIS2_PLACEMENT_3D ( 'NONE', #254, #378, #95 ) ;
#251 = CIRCLE ( 'NONE', #88, 2.500000000000002220 ) ;
#252 = DIRECTION ( 'NONE',  ( 1.000000000000000000, 2.019483917365789773E-28, -1.183789177794380774E-12 ) ) ;
#253 = ORIENTED_EDGE ( 'NONE', *, *, #13, .F. ) ;
#254 = CARTESIAN_POINT ( 'NONE',  ( 16.00000000000119371, 17.00000000000105516, 0.9999999999766779890 ) ) ;
#255 = VERTEX_POINT ( 'NONE', #244 ) ;
#256 = CARTESIAN_POINT ( 'NONE',  ( 15.99999999999882760, 16.99999999999903011, -1.000000000023322233 ) ) ;
#257 = ORIENTED_EDGE ( 'NONE', *, *, #397, .T. ) ;
#258 = CARTESIAN_POINT ( 'NONE',  ( 15.99999999999882760, -17.50000000000097344, -0.9999999999883046886 ) ) ;
#259 = ORIENTED_EDGE ( 'NONE', *, *, #237, .T. ) ;
#260 = ADVANCED_FACE ( 'NONE', ( #214, #4 ), #289, .F. ) ;
#261 = ORIENTED_EDGE ( 'NONE', *, *, #306, .F. ) ;
#262 =( NAMED_UNIT ( * ) SI_UNIT ( $, .STERADIAN. ) SOLID_ANGLE_UNIT ( ) );
#263 = STYLED_ITEM ( 'NONE', ( #390 ), #104 ) ;
#264 = DIRECTION ( 'NONE',  ( 0.000000000000000000, 0.000000000000000000, 1.000000000000000000 ) ) ;
#265 = EDGE_CURVE ( 'NONE', #364, #11, #162, .T. ) ;
#266 = VERTEX_POINT ( 'NONE', #326 ) ;
#267 = DIRECTION ( 'NONE',  ( -1.183789177794380774E-12, -1.015000583581840473E-12, -1.000000000000000000 ) ) ;
#268 = CARTESIAN_POINT ( 'NONE',  ( 15.99999999999882760, -15.00000000000097167, -0.9999999999908422144 ) ) ;
#269 = AXIS2_PLACEMENT_3D ( 'NONE', #28, #155, #53 ) ;
#270 = FACE_BOUND ( 'NONE', #275, .T. ) ;
#271 = DIRECTION ( 'NONE',  ( -1.183789177794380774E-12, -1.015000583581840473E-12, -1.000000000000000000 ) ) ;
#272 = VERTEX_POINT ( 'NONE', #131 ) ;
#273 = ADVANCED_FACE ( 'NONE', ( #317 ), #3, .T. ) ;
#274 = SURFACE_STYLE_FILL_AREA ( #58 ) ;
#275 = EDGE_LOOP ( 'NONE', ( #347 ) ) ;
#276 = DIRECTION ( 'NONE',  ( -1.000000000000000000, 0.000000000000000000, 1.183791070219990783E-12 ) ) ;
#277 = AXIS2_PLACEMENT_3D ( 'NONE', #283, #41, #172 ) ;
#278 = DIRECTION ( 'NONE',  ( -1.183789177794380774E-12, -1.015000583581840473E-12, -1.000000000000000000 ) ) ;
#279 = PRESENTATION_STYLE_ASSIGNMENT (( #122 ) ) ;
#280 = PRODUCT_RELATED_PRODUCT_CATEGORY ( 'part', '', ( #134 ) ) ;
#281 = FACE_BOUND ( 'NONE', #8, .T. ) ;
#282 = CARTESIAN_POINT ( 'NONE',  ( 3.999999999998822275, -17.50000000000097344, -0.9999999999740992740 ) ) ;
#283 = CARTESIAN_POINT ( 'NONE',  ( 4.000000000001190159, 17.00000000000105516, 0.9999999999908836257 ) ) ;
#284 = AXIS2_PLACEMENT_3D ( 'NONE', #189, #149, #87 ) ;
#285 = DIRECTION ( 'NONE',  ( -1.201649728817821095E-24, 1.000000000000000000, -1.015000583581841079E-12 ) ) ;
#286 = ORIENTED_EDGE ( 'NONE', *, *, #359, .F. ) ;
#287 = DIRECTION ( 'NONE',  ( 1.000000000000000000, 0.000000000000000000, -1.183775300006572151E-12 ) ) ;
#288 = EDGE_LOOP ( 'NONE', ( #12, #173, #15, #75, #39, #377, #66, #132 ) ) ;
#289 = CYLINDRICAL_SURFACE ( 'NONE', #10, 2.750000000000000888 ) ;
#290 = ORIENTED_EDGE ( 'NONE', *, *, #6, .T. ) ;
#291 = AXIS2_PLACEMENT_3D ( 'NONE', #320, #200, #346 ) ;
#292 = ORIENTED_EDGE ( 'NONE', *, *, #409, .F. ) ;
#293 = EDGE_LOOP ( 'NONE', ( #152 ) ) ;
#294 =( GEOMETRIC_REPRESENTATION_CONTEXT ( 3 ) GLOBAL_UNCERTAINTY_ASSIGNED_CONTEXT ( ( #159 ) ) GLOBAL_UNIT_ASSIGNED_CONTEXT ( ( #77, #362, #105 ) ) REPRESENTATION_CONTEXT ( 'NONE', 'WORKASPACE' ) );
#295 = EDGE_CURVE ( 'NONE', #94, #102, #354, .T. ) ;
#296 = FACE_OUTER_BOUND ( 'NONE', #145, .T. ) ;
#297 = CARTESIAN_POINT ( 'NONE',  ( 1.499999999998821831, -15.00000000000097167, -0.9999999999736772782 ) ) ;
#298 = ORIENTED_EDGE ( 'NONE', *, *, #144, .F. ) ;
#299 = DIRECTION ( 'NONE',  ( -1.183789177794380774E-12, -1.015000583581840473E-12, -1.000000000000000000 ) ) ;
#300 = EDGE_CURVE ( 'NONE', #74, #272, #375, .T. ) ;
#301 = VECTOR ( 'NONE', #86, 1000.000000000000000 ) ;
#302 = CARTESIAN_POINT ( 'NONE',  ( 3.999999999998821387, 19.49999999999903011, -1.000000000011654233 ) ) ;
#303 = PLANE ( 'NONE',  #1 ) ;
#304 = DIRECTION ( 'NONE',  ( -1.183789177794380774E-12, -1.015000583581840473E-12, -1.000000000000000000 ) ) ;
#305 = STYLED_ITEM ( 'NONE', ( #279 ), #157 ) ;
#306 = EDGE_CURVE ( 'NONE', #391, #364, #91, .T. ) ;
#307 = AXIS2_PLACEMENT_3D ( 'NONE', #387, #264, #235 ) ;
#308 = DIRECTION ( 'NONE',  ( -1.201649728817821095E-24, 1.000000000000000000, -1.015000583581841079E-12 ) ) ;
#309 = DIRECTION ( 'NONE',  ( 1.201649728817821095E-24, -1.000000000000000000, 1.015000583581841079E-12 ) ) ;
#310 = LINE ( 'NONE', #100, #124 ) ;
#311 = UNCERTAINTY_MEASURE_WITH_UNIT (LENGTH_MEASURE( 1.000000000000000082E-05 ), #398, 'distance_accuracy_value', 'NONE');
#312 = EDGE_CURVE ( 'NONE', #102, #198, #139, .T. ) ;
#313 = AXIS2_PLACEMENT_3D ( 'NONE', #268, #148, #396 ) ;
#314 = LINE ( 'NONE', #97, #176 ) ;
#315 = VECTOR ( 'NONE', #226, 1000.000000000000000 ) ;
#316 = ORIENTED_EDGE ( 'NONE', *, *, #397, .F. ) ;
#317 = FACE_OUTER_BOUND ( 'NONE', #136, .T. ) ;
#318 = ORIENTED_EDGE ( 'NONE', *, *, #333, .T. ) ;
#319 = EDGE_CURVE ( 'NONE', #388, #227, #126, .T. ) ;
#320 = CARTESIAN_POINT ( 'NONE',  ( 3.999999999998822275, 16.99999999999903011, -1.000000000009116929 ) ) ;
#321 = ORIENTED_EDGE ( 'NONE', *, *, #190, .T. ) ;
#322 = CARTESIAN_POINT ( 'NONE',  ( 16.00000000000119371, -17.49999999999894484, 1.000000000011695533 ) ) ;
#323 = ORIENTED_EDGE ( 'NONE', *, *, #409, .T. ) ;
#324 = EDGE_LOOP ( 'NONE', ( #71, #292, #405, #128 ) ) ;
#325 = PRODUCT_CONTEXT ( 'NONE', #59, 'mechanical' ) ;
#326 = CARTESIAN_POINT ( 'NONE',  ( 7.250000000001181277, -8.999999999998943068, 1.000000000013426593 ) ) ;
#327 = CARTESIAN_POINT ( 'NONE',  ( 4.000000000001189271, 19.50000000000105871, 0.9999999999883460999 ) ) ;
#328 = AXIS2_PLACEMENT_3D ( 'NONE', #256, #197, #287 ) ;
#329 = CARTESIAN_POINT ( 'NONE',  ( 7.249999999998823164, 10.99999999999902833, -1.000000000006874057 ) ) ;
#330 = CARTESIAN_POINT ( 'NONE',  ( 18.49999999999882760, -15.00000000000097167, -0.9999999999938016249 ) ) ;
#331 = VERTEX_POINT ( 'NONE', #92 ) ;
#332 = CARTESIAN_POINT ( 'NONE',  ( 7.249999999998813394, -9.000000000000971667, -0.9999999999865740730 ) ) ;
#333 = EDGE_CURVE ( 'NONE', #272, #255, #34, .T. ) ;
#334 = DIRECTION ( 'NONE',  ( 1.201649728817821095E-24, -1.000000000000000000, 1.015000583581841079E-12 ) ) ;
#335 = DIRECTION ( 'NONE',  ( -1.183789177794380774E-12, -1.015000583581840473E-12, -1.000000000000000000 ) ) ;
#336 = VECTOR ( 'NONE', #146, 1000.000000000000000 ) ;
#337 = VECTOR ( 'NONE', #9, 1000.000000000000000 ) ;
#338 = DIRECTION ( 'NONE',  ( -1.183789177794380774E-12, -1.015000583581840473E-12, -1.000000000000000000 ) ) ;
#339 = EDGE_CURVE ( 'NONE', #255, #181, #342, .T. ) ;
#340 = CARTESIAN_POINT ( 'NONE',  ( 18.49999999999882760, 16.99999999999903011, -1.000000000026281644 ) ) ;
#341 = AXIS2_PLACEMENT_3D ( 'NONE', #407, #338, #245 ) ;
#342 = CIRCLE ( 'NONE', #328, 2.500000000000002220 ) ;
#343 = CARTESIAN_POINT ( 'NONE',  ( 15.99999999999882760, -15.00000000000097167, -0.9999999999908422144 ) ) ;
#344 = EDGE_CURVE ( 'NONE', #391, #98, #314, .T. ) ;
#345 = CARTESIAN_POINT ( 'NONE',  ( 4.000000000001190159, 19.50000000000105871, 0.9999999999883460999 ) ) ;
#346 = DIRECTION ( 'NONE',  ( 1.000000000000000000, 0.000000000000000000, -1.183775300006572959E-12 ) ) ;
#347 = ORIENTED_EDGE ( 'NONE', *, *, #114, .F. ) ;
#348 = CIRCLE ( 'NONE', #31, 2.750000000000000888 ) ;
#349 = CARTESIAN_POINT ( 'NONE',  ( 16.00000000000119371, -17.49999999999894484, 1.000000000011695533 ) ) ;
#350 = PRODUCT_DEFINITION_FORMATION_WITH_SPECIFIED_SOURCE ( 'ANY', '', #134, .NOT_KNOWN. ) ;
#351 = VERTEX_POINT ( 'NONE', #65 ) ;
#352 = LINE ( 'NONE', #36, #205 ) ;
#353 = ORIENTED_EDGE ( 'NONE', *, *, #339, .F. ) ;
#354 = LINE ( 'NONE', #202, #238 ) ;
#355 = ORIENTED_EDGE ( 'NONE', *, *, #13, .T. ) ;
#356 = ORIENTED_EDGE ( 'NONE', *, *, #312, .F. ) ;
#357 = SURFACE_SIDE_STYLE ('',( #141 ) ) ;
#358 = LINE ( 'NONE', #85, #210 ) ;
#359 = EDGE_CURVE ( 'NONE', #364, #388, #385, .T. ) ;
#360 = MECHANICAL_DESIGN_GEOMETRIC_PRESENTATION_REPRESENTATION (  '', ( #305 ), #67 ) ;
#361 = EDGE_CURVE ( 'NONE', #198, #255, #310, .T. ) ;
#362 =( NAMED_UNIT ( * ) PLANE_ANGLE_UNIT ( ) SI_UNIT ( $, .RADIAN. ) );
#363 = DIRECTION ( 'NONE',  ( -1.183789177794380774E-12, -1.015000583581840473E-12, -1.000000000000000000 ) ) ;
#364 = VERTEX_POINT ( 'NONE', #194 ) ;
#365 = DIRECTION ( 'NONE',  ( 1.000000000000000000, 0.000000000000000000, -1.183775300006572151E-12 ) ) ;
#366 = ORIENTED_EDGE ( 'NONE', *, *, #174, .F. ) ;
#367 = FACE_OUTER_BOUND ( 'NONE', #324, .T. ) ;
#368 = AXIS2_PLACEMENT_3D ( 'NONE', #106, #236, #78 ) ;
#369 = EDGE_CURVE ( 'NONE', #150, #391, #352, .T. ) ;
#370 = ORIENTED_EDGE ( 'NONE', *, *, #174, .T. ) ;
#371 = FACE_OUTER_BOUND ( 'NONE', #101, .T. ) ;
#372 = CARTESIAN_POINT ( 'NONE',  ( 1.500000000001189715, -14.99999999999894129, 1.000000000026323166 ) ) ;
#373 = ADVANCED_FACE ( 'NONE', ( #127 ), #32, .T. ) ;
#374 = AXIS2_PLACEMENT_3D ( 'NONE', #213, #335, #23 ) ;
#375 = LINE ( 'NONE', #345, #118 ) ;
#376 = DIRECTION ( 'NONE',  ( -1.183789177794380774E-12, -1.015000583581840473E-12, -1.000000000000000000 ) ) ;
#377 = ORIENTED_EDGE ( 'NONE', *, *, #361, .T. ) ;
#378 = DIRECTION ( 'NONE',  ( -1.183789177794380774E-12, -1.015000583581840473E-12, -1.000000000000000000 ) ) ;
#379 = ORIENTED_EDGE ( 'NONE', *, *, #306, .T. ) ;
#380 = CLOSED_SHELL ( 'NONE', ( #125, #55, #373, #40, #273, #153, #199, #72, #224, #121, #384, #260 ) ) ;
#381 = CARTESIAN_POINT ( 'NONE',  ( 16.00000000000119371, -14.99999999999894129, 1.000000000009158008 ) ) ;
#382 =( GEOMETRIC_REPRESENTATION_CONTEXT ( 3 ) GLOBAL_UNCERTAINTY_ASSIGNED_CONTEXT ( ( #311 ) ) GLOBAL_UNIT_ASSIGNED_CONTEXT ( ( #398, #178, #262 ) ) REPRESENTATION_CONTEXT ( 'NONE', 'WORKASPACE' ) );
#383 = ORIENTED_EDGE ( 'NONE', *, *, #265, .F. ) ;
#384 = ADVANCED_FACE ( 'NONE', ( #221, #38 ), #170, .F. ) ;
#385 = LINE ( 'NONE', #349, #315 ) ;
#386 = ORIENTED_EDGE ( 'NONE', *, *, #48, .F. ) ;
#387 = CARTESIAN_POINT ( 'NONE',  ( 0.000000000000000000, 0.000000000000000000, 0.000000000000000000 ) ) ;
#388 = VERTEX_POINT ( 'NONE', #218 ) ;
#389 = PRODUCT_DEFINITION ( 'UNKNOWN', '', #350, #192 ) ;
#390 = PRESENTATION_STYLE_ASSIGNMENT (( #51 ) ) ;
#391 = VERTEX_POINT ( 'NONE', #158 ) ;
#392 = VECTOR ( 'NONE', #219, 1000.000000000000000 ) ;
#393 = DIRECTION ( 'NONE',  ( -1.000000000000000000, -2.019483917365789773E-28, 1.183789177794380774E-12 ) ) ;
#394 = PLANE ( 'NONE',  #313 ) ;
#395 = DIRECTION ( 'NONE',  ( -1.183789177794380774E-12, -1.015000583581840473E-12, -1.000000000000000000 ) ) ;
#396 = DIRECTION ( 'NONE',  ( 1.000000000000000000, 2.019483917365789773E-28, -1.183789177794380774E-12 ) ) ;
#397 = EDGE_CURVE ( 'NONE', #331, #74, #47, .T. ) ;
#398 =( LENGTH_UNIT ( ) NAMED_UNIT ( * ) SI_UNIT ( .MILLI., .METRE. ) );
#399 = LINE ( 'NONE', #327, #336 ) ;
#400 = FACE_OUTER_BOUND ( 'NONE', #206, .T. ) ;
#401 = AXIS2_PLACEMENT_3D ( 'NONE', #179, #395, #107 ) ;
#402 = EDGE_LOOP ( 'NONE', ( #232, #253, #119, #318 ) ) ;
#403 = DIRECTION ( 'NONE',  ( -1.000000000000000000, -1.030225186567854649E-28, 1.183789177794380774E-12 ) ) ;
#404 = FILL_AREA_STYLE_COLOUR ( '', #138 ) ;
#405 = ORIENTED_EDGE ( 'NONE', *, *, #207, .T. ) ;
#406 = CIRCLE ( 'NONE', #341, 2.750000000000000888 ) ;
#407 = CARTESIAN_POINT ( 'NONE',  ( 9.999999999998813394, -9.000000000000971667, -0.9999999999898295799 ) ) ;
#408 = DIRECTION ( 'NONE',  ( -1.183789177794380774E-12, -1.015000583581840473E-12, -1.000000000000000000 ) ) ;
#409 = EDGE_CURVE ( 'NONE', #11, #227, #231, .T. ) ;
#410 = CARTESIAN_POINT ( 'NONE',  ( 10.00000000000118128, -8.999999999998943068, 1.000000000010171197 ) ) ;
ENDSEC;
END-ISO-10303-21;
